LA RONDALLA   (Alfonso Esparza Oteo)
 

              Am          E7       Am
En esta noche clara de inquietos luceros
   Dm          Am       E7        Am
lo que yo más quiero te vengo a decir.
                Am      E7          Am
En tanto que la Luna extiende en el cielo
   Dm     Am      E7        Am
su lido velo de plata y zafir.
 

            G7             C
Y en mi corazón siempre estás,
      G7        F       E7
y no puedo olvidarte jamás.
            G7       C
Porque yo na para ti,
        G7       F      E7
y en mi alma la reina serás.
              Am          E7       Am
En esta noche clara de inquietos luceros
   Dm          Am       E7         A
lo que yo más quiero te vengo a decir.
 

            A
Abre el balcón y el corazón
            Bbd     E7
siempre que pase la ronda
         Bm             E7
mira mi bien que yo también
Bm        E7        A
tengo una pena muy honda.
 
 

Para que estés cerca de mi
A7                D
te bajaré las estrellas
Dm                  A
y en esta noche callada
           F#     Bm      E7  A / E7 / A
de toda mi vida se la mejor.
 
 

CIFRADOS

|--------------0-------------------------------------------------------------------------
|--1-0---0-1-----3-1-0----0-------0---3-1-0------------------1-0---------------0---------
|------3---------------3----3-1-3-----------3-1--3-1-0-1-3-------3-1-0-1-0-1-3-------0-1-
|----------------------------------------------------------------------------------3-----
|
|
|----------------------------------------------------------------------------------------
|--------------1-0-------------------0---------------------------------------------------
|--3-1-0-1-3-------3-1-0-1-0---0-1-----3-1-0---0-------0---3-1-0-----------0-1-----0-1---
|----------------------------3---------------3---3-2-3-----------3-2-3-2-3-------3-------
 
 

|--------------0-------------------------------------------------------------------0-----
|--1-0---0-1-----3-1-0----0-------0---3-1-0------------------1-0--------------0----0-----
|------3---------------3----3-1-3-----------3-1--3-1-0-1-3-------3-1-0-----1-------1-----
|-----------------------------------------------------------------------3----------3-----
|
|
|------------------------------------------------------------------------0---------------
|--------------1-0-------------------0-------------------------------0---0---------------
|--3-1-0-1-3-------3-1-0-1-0---0-1-----3-1-0---0-------0---3-1-0---1-----1---------------
|----------------------------3---------------3---3-2-3-----------3-------3---------------
 
 

  En esta noche clara de_inquietos luceros lo que yo más quiero te vengo_a decir
|----------0--2---3-3---3-----2-3---2-0--------------------0----------------------3-2-0--
|-0--2--4-------------------------------0---0---1--3--1-------0--0--1---3---1-0----------
|----------------------------------------------------------------------------------------
|
|
|----------0--2---0-0---0-------0-------------------------------------------------0------
|-0--2--4---------------------4-----4-0------------0-------0------------0-----------3-1--
|---------------------------------------1---1---3-----3-------1--1--3-------3-1----------
 
 

          En tanto que la Luna extiende_en el cielo su pálido velo de plata_y marfil.
|--------------------0--2--3-3-3--2----3---2----0--------------0-------------------------
|--3-1-0--0---2--4--------------------------------0--0--1-3-1----0--0---1--3---1--0------
|----------------------------------------------------------------------------------------
|
|
|--------------------0--2--0-0-0-------0-------------------------------------------------
|--0---0--0---2--4----------------4--------4----0---------0----0-----------0-------------
|----3--------------------------------------------1--1--3---3----1--1---3------3--1------
 
 

                Y_en mi corazón siempre_estás y no puedo_olvidarte jamás
|--3-2-0-------------------------2-----0------2--0------0--------------------------------
|--------3-1-0---0-------0-1-3-------------3--------3-------3-1--3--1-0-----0-------0----
|---------------------3-------------------------------------------------------3-1-3------
|
|
|--0-------------------------------------------------------------------------------------
|----3-1-0---0---------------0---3-----1---0--3--1--0---1---0----0-----------------------
|----------3-----1----0--1-3-----------------------------------3----3-1-----1-0---0-1----
|-------------------------------------------------------------------------------3--------
 
 

  Porque yo nací para ti, y_en mi alma la reina serás.              En esta noche clara
|-----------------2-0-------2---0----0-----------------3-2-0-----------------0--2---3-3--
|--0------01--3-------3----------3-----3--1--3--1-0---------3-1-0--0--2--4--------------
|------3---------------------------------------------------------------------------------
|
|
|------------------------------------------------------0---------------------0--2---0-0--
|--------------0--3-1--0----3---1-0--1--0-----0----------3-1-0---0--0--2--4--------------
|--1---0--1-3------------------------------3-----3-1-----------3-------------------------
 
 

  de_inquietos luceros lo que yo más quiero te vengo_a decir.
|---3----2--3---2-0--------------------0-----0------0---2-0----
|-------------------0---0---1--3--1-------0-----4--------------
|--------------------------------------------------------------
|
|
|---0-------0--------------------------------------------------
|--------4------4-0------------0-------0--0--0--0---0---0------
|-------------------1---1---3-----3-----------------------2----
 
 

          Abre_el balcón, y_el corazón, siempre que pase la ronda. Mira mi bien que yo
|---------4---4----7--4----2----2-2-2----0----0---0--0-2------------2-2--2--2-----0--0---
|--0-2-4--------------------------------------------------4--0---------------------------
|---------------------------------------------------------------3------------------------
|
|
|---------0---0-------0------------------------------------------------------------------
|--0---0-----------4-------4----4-4-4----0----0---0--0-0------------2-2--2--2-----0--0---
|----3----------------------------------------------------3--2--0------------------------
 
 

  también tengo_una pena muy honda. Para que_estés cerca de mí te bajaré las estrellas
|--0--0----------------2-------------4-4----4---4---2--2--2--2--0--0-0-0--4--0-----------
|----------4---4-----4----4---0--------------------------------------------------3--2----
|--------------------------------2-------------------------------------------------------
|
|
|------------------------------------0-0----0---0----------------------------------------
|--0--0----0---0-----0-0----------------------------4--4--4--4--0--0-0-4--2--0---0-------
|-------------------------3---2-----------------------------------------------------3----
|--------------------------------3-------------------------------------------------------
 
 

  y_en esta noche callada de toda mi vida será la mejor.
|--0---0--0--0----------------------------------0--2-0----
|---------------3--1--0-2--0--2-0--2--4-4--4-4------------
|---------------------------------------------------------
|
|
|----------------------------------------------------------
|--1---1--1--1--0---------------------0-0--0-0--2--4-0-----
|------------------3--2-3--2--3-2--3-----------------------